ISO-10303-21;
HEADER;
/****************************************************************
 * Generated by software with PDElib inside                    *
 * PDElib Version v51a, created Wed 11/30/2011                  *
 * ITI Transcendata (http://www.transcendata.com/)              *
 ****************************************************************/
FILE_DESCRIPTION((''),'2;1');
FILE_NAME('C:\\Users\\tao.xu\\Desktop\\LSNUT-AAAG-UQKE.stp','2019-10-30T14:51:11',('tao.xu'),(''),'Autodesk Inventor 2013','Autodesk Inventor 2013','');
FILE_SCHEMA(('CONFIG_CONTROL_DESIGN'));
ENDSEC;
DATA;
#5=APPLICATION_CONTEXT('configuration controlled 3D designs of mechanical parts and assemblies');
#6=APPLICATION_PROTOCOL_DEFINITION('International Standard','ap203_configuration_controlled_3d_design_of_mechanical_parts_and_assemblies_mim_lf',2004,#5);
#7=PRODUCT_CONTEXT('',#5,'mechanical');
#8=PRODUCT('LSNUT-AAAG-UQKE','LSNUT-AAAG-UQKE',$,(#7));
#9=PRODUCT_RELATED_PRODUCT_CATEGORY('part',$,(#8));
#10=PRODUCT_DEFINITION_FORMATION('',$,#8);
#11=PRODUCT_DEFINITION_CONTEXT('part definition',#5,'design');
#12=PRODUCT_DEFINITION('',$,#10,#11);
#18=(NAMED_UNIT(*)PLANE_ANGLE_UNIT()SI_UNIT($,.RADIAN.));
#19=DIMENSIONAL_EXPONENTS(0.0,0.0,0.0,0.0,0.0,0.0,0.0);
#20=PLANE_ANGLE_MEASURE_WITH_UNIT(PLANE_ANGLE_MEASURE(0.0174532925),#18);
#24=(CONVERSION_BASED_UNIT('DEGREE',#20)NAMED_UNIT(#19)PLANE_ANGLE_UNIT());
#28=(NAMED_UNIT(*)SI_UNIT($,.STERADIAN.)SOLID_ANGLE_UNIT());
#32=(LENGTH_UNIT()NAMED_UNIT(*)SI_UNIT(.MILLI.,.METRE.));
#34=UNCERTAINTY_MEASURE_WITH_UNIT(LENGTH_MEASURE(0.01),#32,'DISTANCE_ACCURACY_VALUE','');
#36=(GEOMETRIC_REPRESENTATION_CONTEXT(3)GLOBAL_UNCERTAINTY_ASSIGNED_CONTEXT((#34))GLOBAL_UNIT_ASSIGNED_CONTEXT((#24,#28,#32))REPRESENTATION_CONTEXT('None','None'));
#37=AXIS2_PLACEMENT_3D('',#38,#39,#40);
#38=CARTESIAN_POINT('',(0.0,0.0,0.0));
#39=DIRECTION('',(0.0,0.0,1.0));
#40=DIRECTION('',(1.0,0.0,0.0));
#41=SHAPE_REPRESENTATION('',(#37),#36);
#42=PRODUCT_DEFINITION_SHAPE('','',#12);
#43=SHAPE_DEFINITION_REPRESENTATION(#42,#41);
#49=(NAMED_UNIT(*)PLANE_ANGLE_UNIT()SI_UNIT($,.RADIAN.));
#50=DIMENSIONAL_EXPONENTS(0.0,0.0,0.0,0.0,0.0,0.0,0.0);
#51=PLANE_ANGLE_MEASURE_WITH_UNIT(PLANE_ANGLE_MEASURE(0.0174532925),#49);
#55=(CONVERSION_BASED_UNIT('DEGREE',#51)NAMED_UNIT(#50)PLANE_ANGLE_UNIT());
#59=(NAMED_UNIT(*)SI_UNIT($,.STERADIAN.)SOLID_ANGLE_UNIT());
#63=(LENGTH_UNIT()NAMED_UNIT(*)SI_UNIT(.MILLI.,.METRE.));
#65=UNCERTAINTY_MEASURE_WITH_UNIT(LENGTH_MEASURE(0.000001),#63,'DISTANCE_ACCURACY_VALUE','');
#67=(GEOMETRIC_REPRESENTATION_CONTEXT(3)GLOBAL_UNCERTAINTY_ASSIGNED_CONTEXT((#65))GLOBAL_UNIT_ASSIGNED_CONTEXT((#55,#59,#63))REPRESENTATION_CONTEXT('','3D'));
#68=CARTESIAN_POINT('',(0.0,0.0,24.399999999999999));
#69=DIRECTION('',(0.0,0.0,1.0));
#70=DIRECTION('',(-1.0,0.0,0.0));
#71=AXIS2_PLACEMENT_3D('',#68,#69,#70);
#72=CONICAL_SURFACE('',#71,4.175000000000001,44.999999999999986);
#73=CARTESIAN_POINT('',(3.175,-3.888254E-016,23.399999999999999));
#74=VERTEX_POINT('',#73);
#75=CARTESIAN_POINT('',(0.0,0.0,23.399999999999999));
#76=DIRECTION('',(0.0,0.0,-1.0));
#77=DIRECTION('',(-1.0,0.0,0.0));
#78=AXIS2_PLACEMENT_3D('',#75,#76,#77);
#79=CIRCLE('',#78,3.175);
#80=EDGE_CURVE('',#74,#74,#79,.T.);
#81=ORIENTED_EDGE('',*,*,#80,.T.);
#82=EDGE_LOOP('',(#81));
#83=FACE_OUTER_BOUND('',#82,.T.);
#84=CARTESIAN_POINT('',(5.175000000000001,6.337547E-016,25.399999999999999));
#85=VERTEX_POINT('',#84);
#86=CARTESIAN_POINT('',(0.0,0.0,25.399999999999999));
#87=DIRECTION('',(0.0,0.0,1.0));
#88=DIRECTION('',(-1.0,0.0,0.0));
#89=AXIS2_PLACEMENT_3D('',#86,#87,#88);
#90=CIRCLE('',#89,5.175000000000001);
#91=EDGE_CURVE('',#85,#85,#90,.T.);
#92=ORIENTED_EDGE('',*,*,#91,.T.);
#93=EDGE_LOOP('',(#92));
#94=FACE_BOUND('',#93,.T.);
#95=ADVANCED_FACE('',(#83,#94),#72,.F.);
#96=CARTESIAN_POINT('',(0.0,0.0,5.4));
#97=DIRECTION('',(0.0,0.0,1.0));
#98=DIRECTION('',(1.0,0.0,0.0));
#99=AXIS2_PLACEMENT_3D('',#96,#97,#98);
#100=CYLINDRICAL_SURFACE('',#99,3.175);
#101=CARTESIAN_POINT('',(-3.175,-3.888254E-016,2.0));
#102=VERTEX_POINT('',#101);
#103=CARTESIAN_POINT('',(0.0,0.0,2.0));
#104=DIRECTION('',(0.0,0.0,1.0));
#105=DIRECTION('',(1.0,0.0,0.0));
#106=AXIS2_PLACEMENT_3D('',#103,#104,#105);
#107=CIRCLE('',#106,3.175);
#108=EDGE_CURVE('',#102,#102,#107,.T.);
#109=ORIENTED_EDGE('',*,*,#108,.F.);
#110=EDGE_LOOP('',(#109));
#111=FACE_OUTER_BOUND('',#110,.T.);
#112=ORIENTED_EDGE('',*,*,#80,.F.);
#113=EDGE_LOOP('',(#112));
#114=FACE_BOUND('',#113,.T.);
#115=ADVANCED_FACE('',(#111,#114),#100,.F.);
#116=CARTESIAN_POINT('',(-5.471194E-016,0.0,25.399999999999999));
#117=DIRECTION('',(0.0,0.0,1.0));
#118=DIRECTION('',(1.0,0.0,0.0));
#119=AXIS2_PLACEMENT_3D('',#116,#117,#118);
#120=PLANE('',#119);
#121=CARTESIAN_POINT('',(7.939999999999997,9.723696E-016,25.399999999999999));
#122=VERTEX_POINT('',#121);
#123=CARTESIAN_POINT('',(0.0,0.0,25.399999999999999));
#124=DIRECTION('',(0.0,0.0,1.0));
#125=DIRECTION('',(-1.0,0.0,0.0));
#126=AXIS2_PLACEMENT_3D('',#123,#124,#125);
#127=CIRCLE('',#126,7.939999999999997);
#128=EDGE_CURVE('',#122,#122,#127,.T.);
#129=ORIENTED_EDGE('',*,*,#128,.T.);
#130=EDGE_LOOP('',(#129));
#131=FACE_OUTER_BOUND('',#130,.T.);
#132=ORIENTED_EDGE('',*,*,#91,.F.);
#133=EDGE_LOOP('',(#132));
#134=FACE_BOUND('',#133,.T.);
#135=ADVANCED_FACE('',(#131,#134),#120,.T.);
#136=CARTESIAN_POINT('',(0.0,0.0,1.0));
#137=DIRECTION('',(0.0,0.0,-1.0));
#138=DIRECTION('',(1.0,0.0,0.0));
#139=AXIS2_PLACEMENT_3D('',#136,#137,#138);
#140=CONICAL_SURFACE('',#139,4.175000000000001,45.000000000000014);
#141=ORIENTED_EDGE('',*,*,#108,.T.);
#142=EDGE_LOOP('',(#141));
#143=FACE_OUTER_BOUND('',#142,.T.);
#144=CARTESIAN_POINT('',(-5.175000000000001,6.337547E-016,0.0));
#145=VERTEX_POINT('',#144);
#146=CARTESIAN_POINT('',(0.0,0.0,0.0));
#147=DIRECTION('',(0.0,0.0,-1.0));
#148=DIRECTION('',(1.0,0.0,0.0));
#149=AXIS2_PLACEMENT_3D('',#146,#147,#148);
#150=CIRCLE('',#149,5.175000000000001);
#151=EDGE_CURVE('',#145,#145,#150,.T.);
#152=ORIENTED_EDGE('',*,*,#151,.T.);
#153=EDGE_LOOP('',(#152));
#154=FACE_BOUND('',#153,.T.);
#155=ADVANCED_FACE('',(#143,#154),#140,.F.);
#156=CARTESIAN_POINT('',(-6.282460E-016,2.331177E-016,0.0));
#157=DIRECTION('',(0.0,0.0,1.0));
#158=DIRECTION('',(1.0,0.0,0.0));
#159=AXIS2_PLACEMENT_3D('',#156,#157,#158);
#160=PLANE('',#159);
#161=CARTESIAN_POINT('',(15.875,1.944127E-015,0.0));
#162=VERTEX_POINT('',#161);
#163=CARTESIAN_POINT('',(0.0,0.0,0.0));
#164=DIRECTION('',(0.0,0.0,-1.0));
#165=DIRECTION('',(-1.0,0.0,0.0));
#166=AXIS2_PLACEMENT_3D('',#163,#164,#165);
#167=CIRCLE('',#166,15.875);
#168=EDGE_CURVE('',#162,#162,#167,.T.);
#169=ORIENTED_EDGE('',*,*,#168,.T.);
#170=EDGE_LOOP('',(#169));
#171=FACE_OUTER_BOUND('',#170,.T.);
#172=CARTESIAN_POINT('',(-1.8,11.109999999999992,0.0));
#173=VERTEX_POINT('',#172);
#174=CARTESIAN_POINT('',(0.0,11.109999999999992,0.0));
#175=DIRECTION('',(0.0,0.0,1.0));
#176=DIRECTION('',(1.0,0.0,0.0));
#177=AXIS2_PLACEMENT_3D('',#174,#175,#176);
#178=CIRCLE('',#177,1.8);
#179=EDGE_CURVE('',#173,#173,#178,.T.);
#180=ORIENTED_EDGE('',*,*,#179,.T.);
#181=EDGE_LOOP('',(#180));
#182=FACE_BOUND('',#181,.T.);
#183=CARTESIAN_POINT('',(-8.72154223604511,-7.113845726811984,0.0));
#184=VERTEX_POINT('',#183);
#185=CARTESIAN_POINT('',(-9.62154223604511,-5.554999999999994,0.0));
#186=DIRECTION('',(0.0,0.0,1.0));
#187=DIRECTION('',(-0.5,0.866025403784439,0.0));
#188=AXIS2_PLACEMENT_3D('',#185,#186,#187);
#189=CIRCLE('',#188,1.8);
#190=EDGE_CURVE('',#184,#184,#189,.T.);
#191=ORIENTED_EDGE('',*,*,#190,.T.);
#192=EDGE_LOOP('',(#191));
#193=FACE_BOUND('',#192,.T.);
#194=CARTESIAN_POINT('',(10.521542236045107,-3.996154273188013,0.0));
#195=VERTEX_POINT('',#194);
#196=CARTESIAN_POINT('',(9.621542236045107,-5.555000000000002,0.0));
#197=DIRECTION('',(0.0,0.0,1.0));
#198=DIRECTION('',(-0.5,-0.866025403784438,0.0));
#199=AXIS2_PLACEMENT_3D('',#196,#197,#198);
#200=CIRCLE('',#199,1.8);
#201=EDGE_CURVE('',#195,#195,#200,.T.);
#202=ORIENTED_EDGE('',*,*,#201,.T.);
#203=EDGE_LOOP('',(#202));
#204=FACE_BOUND('',#203,.T.);
#205=ORIENTED_EDGE('',*,*,#151,.F.);
#206=EDGE_LOOP('',(#205));
#207=FACE_BOUND('',#206,.T.);
#208=ADVANCED_FACE('',(#171,#182,#193,#204,#207),#160,.F.);
#209=CARTESIAN_POINT('',(9.621542236045107,-5.555000000000002,-46.827643869438347));
#210=DIRECTION('',(0.0,0.0,1.0));
#211=DIRECTION('',(-0.5,-0.866025403784438,0.0));
#212=AXIS2_PLACEMENT_3D('',#209,#210,#211);
#213=CYLINDRICAL_SURFACE('',#212,1.8);
#214=ORIENTED_EDGE('',*,*,#201,.F.);
#215=EDGE_LOOP('',(#214));
#216=FACE_OUTER_BOUND('',#215,.T.);
#217=CARTESIAN_POINT('',(8.721542236045105,-7.113845726811992,4.76));
#218=VERTEX_POINT('',#217);
#219=CARTESIAN_POINT('',(9.621542236045107,-5.555000000000002,4.76));
#220=DIRECTION('',(0.0,0.0,-1.0));
#221=DIRECTION('',(-0.5,-0.866025403784438,0.0));
#222=AXIS2_PLACEMENT_3D('',#219,#220,#221);
#223=CIRCLE('',#222,1.8);
#224=EDGE_CURVE('',#218,#218,#223,.T.);
#225=ORIENTED_EDGE('',*,*,#224,.F.);
#226=EDGE_LOOP('',(#225));
#227=FACE_BOUND('',#226,.T.);
#228=ADVANCED_FACE('',(#216,#227),#213,.F.);
#229=CARTESIAN_POINT('',(-9.62154223604511,-5.554999999999994,-46.827643869438347));
#230=DIRECTION('',(0.0,0.0,1.0));
#231=DIRECTION('',(-0.5,0.866025403784439,0.0));
#232=AXIS2_PLACEMENT_3D('',#229,#230,#231);
#233=CYLINDRICAL_SURFACE('',#232,1.800000000000001);
#234=ORIENTED_EDGE('',*,*,#190,.F.);
#235=EDGE_LOOP('',(#234));
#236=FACE_OUTER_BOUND('',#235,.T.);
#237=CARTESIAN_POINT('',(-10.521542236045109,-3.996154273188004,4.76));
#238=VERTEX_POINT('',#237);
#239=CARTESIAN_POINT('',(-9.62154223604511,-5.554999999999994,4.76));
#240=DIRECTION('',(0.0,0.0,-1.0));
#241=DIRECTION('',(-0.5,0.866025403784439,0.0));
#242=AXIS2_PLACEMENT_3D('',#239,#240,#241);
#243=CIRCLE('',#242,1.8);
#244=EDGE_CURVE('',#238,#238,#243,.T.);
#245=ORIENTED_EDGE('',*,*,#244,.F.);
#246=EDGE_LOOP('',(#245));
#247=FACE_BOUND('',#246,.T.);
#248=ADVANCED_FACE('',(#236,#247),#233,.F.);
#249=CARTESIAN_POINT('',(0.0,11.109999999999992,-46.827643869438347));
#250=DIRECTION('',(0.0,0.0,1.0));
#251=DIRECTION('',(1.0,0.0,0.0));
#252=AXIS2_PLACEMENT_3D('',#249,#250,#251);
#253=CYLINDRICAL_SURFACE('',#252,1.8);
#254=ORIENTED_EDGE('',*,*,#179,.F.);
#255=EDGE_LOOP('',(#254));
#256=FACE_OUTER_BOUND('',#255,.T.);
#257=CARTESIAN_POINT('',(1.8,11.109999999999992,4.76));
#258=VERTEX_POINT('',#257);
#259=CARTESIAN_POINT('',(0.0,11.109999999999992,4.76));
#260=DIRECTION('',(0.0,0.0,-1.0));
#261=DIRECTION('',(1.0,0.0,0.0));
#262=AXIS2_PLACEMENT_3D('',#259,#260,#261);
#263=CIRCLE('',#262,1.8);
#264=EDGE_CURVE('',#258,#258,#263,.T.);
#265=ORIENTED_EDGE('',*,*,#264,.F.);
#266=EDGE_LOOP('',(#265));
#267=FACE_BOUND('',#266,.T.);
#268=ADVANCED_FACE('',(#256,#267),#253,.F.);
#269=CARTESIAN_POINT('',(0.0,0.0,4.76));
#270=DIRECTION('',(0.0,0.0,1.0));
#271=DIRECTION('',(-1.0,0.0,0.0));
#272=AXIS2_PLACEMENT_3D('',#269,#270,#271);
#273=CYLINDRICAL_SURFACE('',#272,7.939999999999997);
#274=ORIENTED_EDGE('',*,*,#128,.F.);
#275=EDGE_LOOP('',(#274));
#276=FACE_OUTER_BOUND('',#275,.T.);
#277=CARTESIAN_POINT('',(7.939999999999997,9.723696E-016,4.76));
#278=VERTEX_POINT('',#277);
#279=CARTESIAN_POINT('',(0.0,0.0,4.76));
#280=DIRECTION('',(0.0,0.0,-1.0));
#281=DIRECTION('',(-1.0,0.0,0.0));
#282=AXIS2_PLACEMENT_3D('',#279,#280,#281);
#283=CIRCLE('',#282,7.939999999999997);
#284=EDGE_CURVE('',#278,#278,#283,.T.);
#285=ORIENTED_EDGE('',*,*,#284,.F.);
#286=EDGE_LOOP('',(#285));
#287=FACE_BOUND('',#286,.T.);
#288=ADVANCED_FACE('',(#276,#287),#273,.T.);
#289=CARTESIAN_POINT('',(0.0,0.0,0.0));
#290=DIRECTION('',(0.0,0.0,1.0));
#291=DIRECTION('',(-1.0,0.0,0.0));
#292=AXIS2_PLACEMENT_3D('',#289,#290,#291);
#293=CYLINDRICAL_SURFACE('',#292,15.875);
#294=CARTESIAN_POINT('',(15.875,1.944127E-015,4.76));
#295=VERTEX_POINT('',#294);
#296=CARTESIAN_POINT('',(0.0,0.0,4.76));
#297=DIRECTION('',(0.0,0.0,1.0));
#298=DIRECTION('',(-1.0,0.0,0.0));
#299=AXIS2_PLACEMENT_3D('',#296,#297,#298);
#300=CIRCLE('',#299,15.875);
#301=EDGE_CURVE('',#295,#295,#300,.T.);
#302=ORIENTED_EDGE('',*,*,#301,.F.);
#303=EDGE_LOOP('',(#302));
#304=FACE_OUTER_BOUND('',#303,.T.);
#305=ORIENTED_EDGE('',*,*,#168,.F.);
#306=EDGE_LOOP('',(#305));
#307=FACE_BOUND('',#306,.T.);
#308=ADVANCED_FACE('',(#304,#307),#293,.T.);
#309=CARTESIAN_POINT('',(-6.282460E-016,2.331177E-016,4.76));
#310=DIRECTION('',(0.0,0.0,1.0));
#311=DIRECTION('',(1.0,0.0,0.0));
#312=AXIS2_PLACEMENT_3D('',#309,#310,#311);
#313=PLANE('',#312);
#314=ORIENTED_EDGE('',*,*,#301,.T.);
#315=EDGE_LOOP('',(#314));
#316=FACE_OUTER_BOUND('',#315,.T.);
#317=ORIENTED_EDGE('',*,*,#224,.T.);
#318=EDGE_LOOP('',(#317));
#319=FACE_BOUND('',#318,.T.);
#320=ORIENTED_EDGE('',*,*,#244,.T.);
#321=EDGE_LOOP('',(#320));
#322=FACE_BOUND('',#321,.T.);
#323=ORIENTED_EDGE('',*,*,#264,.T.);
#324=EDGE_LOOP('',(#323));
#325=FACE_BOUND('',#324,.T.);
#326=ORIENTED_EDGE('',*,*,#284,.T.);
#327=EDGE_LOOP('',(#326));
#328=FACE_BOUND('',#327,.T.);
#329=ADVANCED_FACE('',(#316,#319,#322,#325,#328),#313,.T.);
#330=CLOSED_SHELL('',(#95,#115,#135,#155,#208,#228,#248,#268,#288,#308,#329));
#331=MANIFOLD_SOLID_BREP('\X2\5B9E4F53\X0\1',#330);
#332=COLOUR_RGB('\X2\FFFDFFFD026B\X0\',0.959999978542328,0.959999978542328,0.959999978542328);
#333=FILL_AREA_STYLE_COLOUR('\X2\FFFDFFFD026B\X0\',#332);
#334=FILL_AREA_STYLE('\X2\FFFDFFFD026B\X0\',(#333));
#335=SURFACE_STYLE_FILL_AREA(#334);
#336=SURFACE_SIDE_STYLE('\X2\FFFDFFFD026B\X0\',(#335));
#337=SURFACE_STYLE_USAGE(.BOTH.,#336);
#338=PRESENTATION_STYLE_ASSIGNMENT((#337));
#339=STYLED_ITEM('',(#338),#331);
#340=MECHANICAL_DESIGN_GEOMETRIC_PRESENTATION_REPRESENTATION('',(#339),#36);
#341=ADVANCED_BREP_SHAPE_REPRESENTATION('ABSR',(#331),#36);
#342=SHAPE_REPRESENTATION_RELATIONSHIP('SRR','None',#341,#41);
ENDSEC;
END-ISO-10303-21;
