ISO-10303-21;
HEADER;
/****************************************************************
 * Generated by software with PDElib inside                    *
 * PDElib Version v51a, created Wed 11/30/2011                  *
 * ITI Transcendata (http://www.transcendata.com/)              *
 ****************************************************************/
FILE_DESCRIPTION((''),'2;1');
FILE_NAME('C:\\Users\\Administrator\\Desktop\\\X2\65B05EFA65874EF65939\X0\\\LSNUT-T5x5-F.stp','2014-01-23T10:46:07',('Administrator'),(''),'Autodesk Inventor 2013','Autodesk Inventor 2013','');
FILE_SCHEMA(('AUTOMOTIVE_DESIGN { 1 0 10303 214 1 1 1 1 }'));
ENDSEC;
DATA;
#5=APPLICATION_CONTEXT('automotive design');
#6=APPLICATION_PROTOCOL_DEFINITION('International Standard','automotive_design',2001,#5);
#7=PRODUCT_CONTEXT('',#5,'mechanical');
#8=PRODUCT('LSNUT-T5x5-F','LSNUT-T5x5-F',$,(#7));
#9=PRODUCT_RELATED_PRODUCT_CATEGORY('part',$,(#8));
#10=PRODUCT_DEFINITION_FORMATION('',$,#8);
#11=PRODUCT_DEFINITION_CONTEXT('part definition',#5,'design');
#12=PRODUCT_DEFINITION('',$,#10,#11);
#18=(NAMED_UNIT(*)PLANE_ANGLE_UNIT()SI_UNIT($,.RADIAN.));
#19=DIMENSIONAL_EXPONENTS(0.0,0.0,0.0,0.0,0.0,0.0,0.0);
#20=PLANE_ANGLE_MEASURE_WITH_UNIT(PLANE_ANGLE_MEASURE(0.0174532925),#18);
#24=(CONVERSION_BASED_UNIT('DEGREE',#20)NAMED_UNIT(#19)PLANE_ANGLE_UNIT());
#28=(NAMED_UNIT(*)SI_UNIT($,.STERADIAN.)SOLID_ANGLE_UNIT());
#32=(LENGTH_UNIT()NAMED_UNIT(*)SI_UNIT(.MILLI.,.METRE.));
#34=UNCERTAINTY_MEASURE_WITH_UNIT(LENGTH_MEASURE(0.01),#32,'DISTANCE_ACCURACY_VALUE','');
#36=(GEOMETRIC_REPRESENTATION_CONTEXT(3)GLOBAL_UNCERTAINTY_ASSIGNED_CONTEXT((#34))GLOBAL_UNIT_ASSIGNED_CONTEXT((#24,#28,#32))REPRESENTATION_CONTEXT('None','None'));
#37=AXIS2_PLACEMENT_3D('',#38,#39,#40);
#38=CARTESIAN_POINT('',(0.0,0.0,0.0));
#39=DIRECTION('',(0.0,0.0,1.0));
#40=DIRECTION('',(1.0,0.0,0.0));
#41=SHAPE_REPRESENTATION('',(#37),#36);
#42=PRODUCT_DEFINITION_SHAPE('','',#12);
#43=SHAPE_DEFINITION_REPRESENTATION(#42,#41);
#49=(NAMED_UNIT(*)PLANE_ANGLE_UNIT()SI_UNIT($,.RADIAN.));
#50=DIMENSIONAL_EXPONENTS(0.0,0.0,0.0,0.0,0.0,0.0,0.0);
#51=PLANE_ANGLE_MEASURE_WITH_UNIT(PLANE_ANGLE_MEASURE(0.0174532925),#49);
#55=(CONVERSION_BASED_UNIT('DEGREE',#51)NAMED_UNIT(#50)PLANE_ANGLE_UNIT());
#59=(NAMED_UNIT(*)SI_UNIT($,.STERADIAN.)SOLID_ANGLE_UNIT());
#63=(LENGTH_UNIT()NAMED_UNIT(*)SI_UNIT(.MILLI.,.METRE.));
#65=UNCERTAINTY_MEASURE_WITH_UNIT(LENGTH_MEASURE(0.000001),#63,'DISTANCE_ACCURACY_VALUE','');
#67=(GEOMETRIC_REPRESENTATION_CONTEXT(3)GLOBAL_UNCERTAINTY_ASSIGNED_CONTEXT((#65))GLOBAL_UNIT_ASSIGNED_CONTEXT((#55,#59,#63))REPRESENTATION_CONTEXT('','3D'));
#68=CARTESIAN_POINT('',(0.0,0.499999999999998,0.0));
#69=DIRECTION('',(0.0,-1.0,0.0));
#70=DIRECTION('',(-1.0,0.0,0.0));
#71=AXIS2_PLACEMENT_3D('',#68,#69,#70);
#72=CONICAL_SURFACE('',#71,3.0,45.000000000000099);
#73=CARTESIAN_POINT('',(2.5,0.999999999999996,-3.061617E-016));
#74=VERTEX_POINT('',#73);
#75=CARTESIAN_POINT('',(0.0,0.999999999999996,0.0));
#76=DIRECTION('',(0.0,1.0,0.0));
#77=DIRECTION('',(-1.0,0.0,0.0));
#78=AXIS2_PLACEMENT_3D('',#75,#76,#77);
#79=CIRCLE('',#78,2.5);
#80=EDGE_CURVE('',#74,#74,#79,.T.);
#81=ORIENTED_EDGE('',*,*,#80,.T.);
#82=EDGE_LOOP('',(#81));
#83=FACE_OUTER_BOUND('',#82,.T.);
#84=CARTESIAN_POINT('',(3.5,0.0,4.286264E-016));
#85=VERTEX_POINT('',#84);
#86=CARTESIAN_POINT('',(0.0,0.0,0.0));
#87=DIRECTION('',(0.0,-1.0,0.0));
#88=DIRECTION('',(-1.0,0.0,0.0));
#89=AXIS2_PLACEMENT_3D('',#86,#87,#88);
#90=CIRCLE('',#89,3.5);
#91=EDGE_CURVE('',#85,#85,#90,.T.);
#92=ORIENTED_EDGE('',*,*,#91,.T.);
#93=EDGE_LOOP('',(#92));
#94=FACE_BOUND('',#93,.T.);
#95=ADVANCED_FACE('',(#83,#94),#72,.F.);
#96=CARTESIAN_POINT('',(0.0,41.113501432011354,0.0));
#97=DIRECTION('',(0.0,-1.0,0.0));
#98=DIRECTION('',(1.0,0.0,0.0));
#99=AXIS2_PLACEMENT_3D('',#96,#97,#98);
#100=CYLINDRICAL_SURFACE('',#99,2.5);
#101=CARTESIAN_POINT('',(-2.5,19.0,-3.061617E-016));
#102=VERTEX_POINT('',#101);
#103=CARTESIAN_POINT('',(0.0,19.0,0.0));
#104=DIRECTION('',(0.0,-1.0,0.0));
#105=DIRECTION('',(1.0,0.0,0.0));
#106=AXIS2_PLACEMENT_3D('',#103,#104,#105);
#107=CIRCLE('',#106,2.5);
#108=EDGE_CURVE('',#102,#102,#107,.T.);
#109=ORIENTED_EDGE('',*,*,#108,.F.);
#110=EDGE_LOOP('',(#109));
#111=FACE_OUTER_BOUND('',#110,.T.);
#112=ORIENTED_EDGE('',*,*,#80,.F.);
#113=EDGE_LOOP('',(#112));
#114=FACE_BOUND('',#113,.T.);
#115=ADVANCED_FACE('',(#111,#114),#100,.F.);
#116=CARTESIAN_POINT('',(7.124027E-016,0.0,-2.913971E-016));
#117=DIRECTION('',(0.0,1.0,0.0));
#118=DIRECTION('',(0.0,0.0,1.0));
#119=AXIS2_PLACEMENT_3D('',#116,#117,#118);
#120=PLANE('',#119);
#121=CARTESIAN_POINT('',(-12.699999999999999,0.0,1.555301E-015));
#122=VERTEX_POINT('',#121);
#123=CARTESIAN_POINT('',(0.0,0.0,0.0));
#124=DIRECTION('',(0.0,-1.0,0.0));
#125=DIRECTION('',(1.0,0.0,0.0));
#126=AXIS2_PLACEMENT_3D('',#123,#124,#125);
#127=CIRCLE('',#126,12.699999999999999);
#128=EDGE_CURVE('',#122,#122,#127,.T.);
#129=ORIENTED_EDGE('',*,*,#128,.T.);
#130=EDGE_LOOP('',(#129));
#131=FACE_OUTER_BOUND('',#130,.T.);
#132=CARTESIAN_POINT('',(10.048891971046778,0.0,-4.762500000000005));
#133=VERTEX_POINT('',#132);
#134=CARTESIAN_POINT('',(8.248891971046778,0.0,-4.762500000000005));
#135=DIRECTION('',(0.0,1.0,0.0));
#136=DIRECTION('',(-1.0,0.0,0.0));
#137=AXIS2_PLACEMENT_3D('',#134,#135,#136);
#138=CIRCLE('',#137,1.800000000000001);
#139=EDGE_CURVE('',#133,#133,#138,.T.);
#140=ORIENTED_EDGE('',*,*,#139,.T.);
#141=EDGE_LOOP('',(#140));
#142=FACE_BOUND('',#141,.T.);
#143=CARTESIAN_POINT('',(1.800000000000001,0.0,9.525000000000002));
#144=VERTEX_POINT('',#143);
#145=CARTESIAN_POINT('',(0.0,0.0,9.525000000000002));
#146=DIRECTION('',(0.0,1.0,0.0));
#147=DIRECTION('',(-1.0,0.0,0.0));
#148=AXIS2_PLACEMENT_3D('',#145,#146,#147);
#149=CIRCLE('',#148,1.800000000000001);
#150=EDGE_CURVE('',#144,#144,#149,.T.);
#151=ORIENTED_EDGE('',*,*,#150,.T.);
#152=EDGE_LOOP('',(#151));
#153=FACE_BOUND('',#152,.T.);
#154=CARTESIAN_POINT('',(-6.44889197104678,0.0,-4.762499999999998));
#155=VERTEX_POINT('',#154);
#156=CARTESIAN_POINT('',(-8.248891971046779,0.0,-4.762499999999998));
#157=DIRECTION('',(0.0,1.0,0.0));
#158=DIRECTION('',(-1.0,0.0,0.0));
#159=AXIS2_PLACEMENT_3D('',#156,#157,#158);
#160=CIRCLE('',#159,1.800000000000001);
#161=EDGE_CURVE('',#155,#155,#160,.T.);
#162=ORIENTED_EDGE('',*,*,#161,.T.);
#163=EDGE_LOOP('',(#162));
#164=FACE_BOUND('',#163,.T.);
#165=ORIENTED_EDGE('',*,*,#91,.F.);
#166=EDGE_LOOP('',(#165));
#167=FACE_BOUND('',#166,.T.);
#168=ADVANCED_FACE('',(#131,#142,#153,#164,#167),#120,.F.);
#169=CARTESIAN_POINT('',(0.0,19.5,0.0));
#170=DIRECTION('',(0.0,1.0,0.0));
#171=DIRECTION('',(1.0,0.0,0.0));
#172=AXIS2_PLACEMENT_3D('',#169,#170,#171);
#173=CONICAL_SURFACE('',#172,3.0,44.999999999999979);
#174=ORIENTED_EDGE('',*,*,#108,.T.);
#175=EDGE_LOOP('',(#174));
#176=FACE_OUTER_BOUND('',#175,.T.);
#177=CARTESIAN_POINT('',(-3.5,20.0,4.286264E-016));
#178=VERTEX_POINT('',#177);
#179=CARTESIAN_POINT('',(0.0,20.0,0.0));
#180=DIRECTION('',(0.0,1.0,0.0));
#181=DIRECTION('',(1.0,0.0,0.0));
#182=AXIS2_PLACEMENT_3D('',#179,#180,#181);
#183=CIRCLE('',#182,3.5);
#184=EDGE_CURVE('',#178,#178,#183,.T.);
#185=ORIENTED_EDGE('',*,*,#184,.T.);
#186=EDGE_LOOP('',(#185));
#187=FACE_BOUND('',#186,.T.);
#188=ADVANCED_FACE('',(#176,#187),#173,.F.);
#189=CARTESIAN_POINT('',(-3.562013E-016,20.0,1.456986E-016));
#190=DIRECTION('',(0.0,1.0,0.0));
#191=DIRECTION('',(0.0,0.0,1.0));
#192=AXIS2_PLACEMENT_3D('',#189,#190,#191);
#193=PLANE('',#192);
#194=CARTESIAN_POINT('',(6.35,20.0,-7.776507E-016));
#195=VERTEX_POINT('',#194);
#196=CARTESIAN_POINT('',(0.0,20.0,0.0));
#197=DIRECTION('',(0.0,1.0,0.0));
#198=DIRECTION('',(-1.0,0.0,0.0));
#199=AXIS2_PLACEMENT_3D('',#196,#197,#198);
#200=CIRCLE('',#199,6.35);
#201=EDGE_CURVE('',#195,#195,#200,.T.);
#202=ORIENTED_EDGE('',*,*,#201,.T.);
#203=EDGE_LOOP('',(#202));
#204=FACE_OUTER_BOUND('',#203,.T.);
#205=ORIENTED_EDGE('',*,*,#184,.F.);
#206=EDGE_LOOP('',(#205));
#207=FACE_BOUND('',#206,.T.);
#208=ADVANCED_FACE('',(#204,#207),#193,.T.);
#209=CARTESIAN_POINT('',(-8.248891971046779,0.0,-4.762499999999998));
#210=DIRECTION('',(0.0,1.0,0.0));
#211=DIRECTION('',(-1.0,0.0,0.0));
#212=AXIS2_PLACEMENT_3D('',#209,#210,#211);
#213=CYLINDRICAL_SURFACE('',#212,1.800000000000001);
#214=CARTESIAN_POINT('',(-6.44889197104678,5.0,-4.762499999999998));
#215=VERTEX_POINT('',#214);
#216=CARTESIAN_POINT('',(-8.248891971046779,5.0,-4.762499999999998));
#217=DIRECTION('',(0.0,-1.0,0.0));
#218=DIRECTION('',(-1.0,0.0,0.0));
#219=AXIS2_PLACEMENT_3D('',#216,#217,#218);
#220=CIRCLE('',#219,1.800000000000001);
#221=EDGE_CURVE('',#215,#215,#220,.T.);
#222=ORIENTED_EDGE('',*,*,#221,.F.);
#223=EDGE_LOOP('',(#222));
#224=FACE_OUTER_BOUND('',#223,.T.);
#225=ORIENTED_EDGE('',*,*,#161,.F.);
#226=EDGE_LOOP('',(#225));
#227=FACE_BOUND('',#226,.T.);
#228=ADVANCED_FACE('',(#224,#227),#213,.F.);
#229=CARTESIAN_POINT('',(0.0,0.0,9.525000000000002));
#230=DIRECTION('',(0.0,1.0,0.0));
#231=DIRECTION('',(-1.0,0.0,0.0));
#232=AXIS2_PLACEMENT_3D('',#229,#230,#231);
#233=CYLINDRICAL_SURFACE('',#232,1.800000000000001);
#234=CARTESIAN_POINT('',(1.800000000000001,5.0,9.525000000000002));
#235=VERTEX_POINT('',#234);
#236=CARTESIAN_POINT('',(0.0,5.0,9.525000000000002));
#237=DIRECTION('',(0.0,-1.0,0.0));
#238=DIRECTION('',(-1.0,0.0,0.0));
#239=AXIS2_PLACEMENT_3D('',#236,#237,#238);
#240=CIRCLE('',#239,1.800000000000001);
#241=EDGE_CURVE('',#235,#235,#240,.T.);
#242=ORIENTED_EDGE('',*,*,#241,.F.);
#243=EDGE_LOOP('',(#242));
#244=FACE_OUTER_BOUND('',#243,.T.);
#245=ORIENTED_EDGE('',*,*,#150,.F.);
#246=EDGE_LOOP('',(#245));
#247=FACE_BOUND('',#246,.T.);
#248=ADVANCED_FACE('',(#244,#247),#233,.F.);
#249=CARTESIAN_POINT('',(8.248891971046778,0.0,-4.762500000000005));
#250=DIRECTION('',(0.0,1.0,0.0));
#251=DIRECTION('',(-1.0,0.0,0.0));
#252=AXIS2_PLACEMENT_3D('',#249,#250,#251);
#253=CYLINDRICAL_SURFACE('',#252,1.800000000000001);
#254=CARTESIAN_POINT('',(10.048891971046778,5.0,-4.762500000000005));
#255=VERTEX_POINT('',#254);
#256=CARTESIAN_POINT('',(8.248891971046778,5.0,-4.762500000000005));
#257=DIRECTION('',(0.0,-1.0,0.0));
#258=DIRECTION('',(-1.0,0.0,0.0));
#259=AXIS2_PLACEMENT_3D('',#256,#257,#258);
#260=CIRCLE('',#259,1.800000000000001);
#261=EDGE_CURVE('',#255,#255,#260,.T.);
#262=ORIENTED_EDGE('',*,*,#261,.F.);
#263=EDGE_LOOP('',(#262));
#264=FACE_OUTER_BOUND('',#263,.T.);
#265=ORIENTED_EDGE('',*,*,#139,.F.);
#266=EDGE_LOOP('',(#265));
#267=FACE_BOUND('',#266,.T.);
#268=ADVANCED_FACE('',(#264,#267),#253,.F.);
#269=CARTESIAN_POINT('',(0.0,5.0,0.0));
#270=DIRECTION('',(0.0,1.0,0.0));
#271=DIRECTION('',(-1.0,0.0,0.0));
#272=AXIS2_PLACEMENT_3D('',#269,#270,#271);
#273=CYLINDRICAL_SURFACE('',#272,6.35);
#274=ORIENTED_EDGE('',*,*,#201,.F.);
#275=EDGE_LOOP('',(#274));
#276=FACE_OUTER_BOUND('',#275,.T.);
#277=CARTESIAN_POINT('',(6.35,5.0,-7.776507E-016));
#278=VERTEX_POINT('',#277);
#279=CARTESIAN_POINT('',(0.0,5.0,0.0));
#280=DIRECTION('',(0.0,-1.0,0.0));
#281=DIRECTION('',(-1.0,0.0,0.0));
#282=AXIS2_PLACEMENT_3D('',#279,#280,#281);
#283=CIRCLE('',#282,6.35);
#284=EDGE_CURVE('',#278,#278,#283,.T.);
#285=ORIENTED_EDGE('',*,*,#284,.F.);
#286=EDGE_LOOP('',(#285));
#287=FACE_BOUND('',#286,.T.);
#288=ADVANCED_FACE('',(#276,#287),#273,.T.);
#289=CARTESIAN_POINT('',(0.0,0.0,0.0));
#290=DIRECTION('',(0.0,1.0,0.0));
#291=DIRECTION('',(1.0,0.0,0.0));
#292=AXIS2_PLACEMENT_3D('',#289,#290,#291);
#293=CYLINDRICAL_SURFACE('',#292,12.699999999999999);
#294=CARTESIAN_POINT('',(-12.699999999999999,5.0,1.555301E-015));
#295=VERTEX_POINT('',#294);
#296=CARTESIAN_POINT('',(0.0,5.0,0.0));
#297=DIRECTION('',(0.0,1.0,0.0));
#298=DIRECTION('',(1.0,0.0,0.0));
#299=AXIS2_PLACEMENT_3D('',#296,#297,#298);
#300=CIRCLE('',#299,12.699999999999999);
#301=EDGE_CURVE('',#295,#295,#300,.T.);
#302=ORIENTED_EDGE('',*,*,#301,.F.);
#303=EDGE_LOOP('',(#302));
#304=FACE_OUTER_BOUND('',#303,.T.);
#305=ORIENTED_EDGE('',*,*,#128,.F.);
#306=EDGE_LOOP('',(#305));
#307=FACE_BOUND('',#306,.T.);
#308=ADVANCED_FACE('',(#304,#307),#293,.T.);
#309=CARTESIAN_POINT('',(7.124027E-016,5.0,-2.913971E-016));
#310=DIRECTION('',(0.0,1.0,0.0));
#311=DIRECTION('',(0.0,0.0,1.0));
#312=AXIS2_PLACEMENT_3D('',#309,#310,#311);
#313=PLANE('',#312);
#314=ORIENTED_EDGE('',*,*,#301,.T.);
#315=EDGE_LOOP('',(#314));
#316=FACE_OUTER_BOUND('',#315,.T.);
#317=ORIENTED_EDGE('',*,*,#221,.T.);
#318=EDGE_LOOP('',(#317));
#319=FACE_BOUND('',#318,.T.);
#320=ORIENTED_EDGE('',*,*,#241,.T.);
#321=EDGE_LOOP('',(#320));
#322=FACE_BOUND('',#321,.T.);
#323=ORIENTED_EDGE('',*,*,#261,.T.);
#324=EDGE_LOOP('',(#323));
#325=FACE_BOUND('',#324,.T.);
#326=ORIENTED_EDGE('',*,*,#284,.T.);
#327=EDGE_LOOP('',(#326));
#328=FACE_BOUND('',#327,.T.);
#329=ADVANCED_FACE('',(#316,#319,#322,#325,#328),#313,.T.);
#330=CLOSED_SHELL('',(#95,#115,#168,#188,#208,#228,#248,#268,#288,#308,#329));
#331=MANIFOLD_SOLID_BREP('\X2\5B9E4F53\X0\1',#330);
#332=COLOUR_RGB('\X2\012CFFFDFFFD\X0\',0.75,0.75,0.75);
#333=FILL_AREA_STYLE_COLOUR('\X2\012CFFFDFFFD\X0\',#332);
#334=FILL_AREA_STYLE('\X2\012CFFFDFFFD\X0\',(#333));
#335=SURFACE_STYLE_FILL_AREA(#334);
#336=SURFACE_SIDE_STYLE('\X2\012CFFFDFFFD\X0\',(#335));
#337=SURFACE_STYLE_USAGE(.BOTH.,#336);
#338=PRESENTATION_STYLE_ASSIGNMENT((#337));
#339=STYLED_ITEM('',(#338),#331);
#340=MECHANICAL_DESIGN_GEOMETRIC_PRESENTATION_REPRESENTATION('',(#339),#36);
#341=ADVANCED_BREP_SHAPE_REPRESENTATION('ABSR',(#331),#36);
#342=SHAPE_REPRESENTATION_RELATIONSHIP('SRR','None',#341,#41);
ENDSEC;
END-ISO-10303-21;
