ISO-10303-21;
HEADER;
/****************************************************************
 * Generated by software with PDE/Lib inside                    *
 * PDElib Version v51a, created Fri 05/18/2009                  *
 * International Technegroup Inc. (www.iti-oh.com)              *
 ****************************************************************/
FILE_DESCRIPTION((''),'2;1');
FILE_NAME('Z:\\3D-Zeichnung\\SP-LSP-Motoren\\LSP1518M.stp','2012-12-06T14:31:48',('wei_j'),(''),'Autodesk Inventor 2010','Autodesk Inventor 2010','');
FILE_SCHEMA(('AUTOMOTIVE_DESIGN { 1 0 10303 214 1 1 1 1 }'));
ENDSEC;
DATA;
#5=APPLICATION_CONTEXT('automotive design');
#6=APPLICATION_PROTOCOL_DEFINITION('International Standard','automotive_design',2001,#5);
#7=PRODUCT_CONTEXT('',#5,'mechanical');
#8=PRODUCT('LSP1518M','LSP1518M',$,(#7));
#9=PRODUCT_RELATED_PRODUCT_CATEGORY('part',$,(#8));
#10=PRODUCT_DEFINITION_FORMATION('',$,#8);
#11=PRODUCT_DEFINITION_CONTEXT('part definition',#5,'design');
#12=PRODUCT_DEFINITION('',$,#10,#11);
#18=(NAMED_UNIT(*)PLANE_ANGLE_UNIT()SI_UNIT($,.RADIAN.));
#19=DIMENSIONAL_EXPONENTS(0.0,0.0,0.0,0.0,0.0,0.0,0.0);
#20=PLANE_ANGLE_MEASURE_WITH_UNIT(PLANE_ANGLE_MEASURE(0.017453292500000),#18);
#24=(CONVERSION_BASED_UNIT('DEGREE',#20)NAMED_UNIT(#19)PLANE_ANGLE_UNIT());
#28=(NAMED_UNIT(*)SI_UNIT($,.STERADIAN.)SOLID_ANGLE_UNIT());
#32=(LENGTH_UNIT()NAMED_UNIT(*)SI_UNIT(.MILLI.,.METRE.));
#34=UNCERTAINTY_MEASURE_WITH_UNIT(LENGTH_MEASURE(0.010000000000000),#32,'DISTANCE_ACCURACY_VALUE','');
#36=(GEOMETRIC_REPRESENTATION_CONTEXT(3)GLOBAL_UNCERTAINTY_ASSIGNED_CONTEXT((#34))GLOBAL_UNIT_ASSIGNED_CONTEXT((#24,#28,#32))REPRESENTATION_CONTEXT('None','None'));
#37=AXIS2_PLACEMENT_3D('',#38,#39,#40);
#38=CARTESIAN_POINT('',(0.0,0.0,0.0));
#39=DIRECTION('',(0.0,0.0,1.0));
#40=DIRECTION('',(1.0,0.0,0.0));
#41=SHAPE_REPRESENTATION('',(#37),#36);
#42=PRODUCT_DEFINITION_SHAPE('','',#12);
#43=SHAPE_DEFINITION_REPRESENTATION(#42,#41);
#49=(NAMED_UNIT(*)PLANE_ANGLE_UNIT()SI_UNIT($,.RADIAN.));
#50=DIMENSIONAL_EXPONENTS(0.0,0.0,0.0,0.0,0.0,0.0,0.0);
#51=PLANE_ANGLE_MEASURE_WITH_UNIT(PLANE_ANGLE_MEASURE(0.017453292500000),#49);
#55=(CONVERSION_BASED_UNIT('DEGREE',#51)NAMED_UNIT(#50)PLANE_ANGLE_UNIT());
#59=(NAMED_UNIT(*)SI_UNIT($,.STERADIAN.)SOLID_ANGLE_UNIT());
#63=(LENGTH_UNIT()NAMED_UNIT(*)SI_UNIT(.MILLI.,.METRE.));
#65=UNCERTAINTY_MEASURE_WITH_UNIT(LENGTH_MEASURE(0.000001000000000),#63,'DISTANCE_ACCURACY_VALUE','');
#67=(GEOMETRIC_REPRESENTATION_CONTEXT(3)GLOBAL_UNCERTAINTY_ASSIGNED_CONTEXT((#65))GLOBAL_UNIT_ASSIGNED_CONTEXT((#55,#59,#63))REPRESENTATION_CONTEXT('','3D'));
#68=CARTESIAN_POINT('',(11.500000000000002,1.200000000000001,-6.100000000000001));
#69=DIRECTION('',(1.0,0.0,0.0));
#70=DIRECTION('',(0.0,0.0,-1.0));
#71=AXIS2_PLACEMENT_3D('',#68,#69,#70);
#72=CYLINDRICAL_SURFACE('',#71,0.500000000000000);
#73=CARTESIAN_POINT('',(21.500000000000004,1.200000000000001,-5.600000000000001));
#74=VERTEX_POINT('',#73);
#75=CARTESIAN_POINT('',(21.500000000000004,1.200000000000001,-6.100000000000001));
#76=DIRECTION('',(-1.0,0.0,0.0));
#77=DIRECTION('',(0.0,0.0,-1.0));
#78=AXIS2_PLACEMENT_3D('',#75,#76,#77);
#79=CIRCLE('',#78,0.500000000000000);
#80=EDGE_CURVE('',#74,#74,#79,.T.);
#81=ORIENTED_EDGE('',*,*,#80,.T.);
#82=EDGE_LOOP('',(#81));
#83=FACE_OUTER_BOUND('',#82,.T.);
#84=CARTESIAN_POINT('',(11.500000000000002,1.200000000000001,-5.600000000000001));
#85=VERTEX_POINT('',#84);
#86=CARTESIAN_POINT('',(11.500000000000002,1.200000000000001,-6.100000000000001));
#87=DIRECTION('',(-1.0,0.0,0.0));
#88=DIRECTION('',(0.0,0.0,-1.0));
#89=AXIS2_PLACEMENT_3D('',#86,#87,#88);
#90=CIRCLE('',#89,0.500000000000000);
#91=EDGE_CURVE('',#85,#85,#90,.T.);
#92=ORIENTED_EDGE('',*,*,#91,.F.);
#93=EDGE_LOOP('',(#92));
#94=FACE_BOUND('',#93,.T.);
#95=ADVANCED_FACE('',(#83,#94),#72,.T.);
#96=CARTESIAN_POINT('',(21.500000000000004,1.200000000000001,-6.100000000000001));
#97=DIRECTION('',(-1.0,0.0,0.0));
#98=DIRECTION('',(0.0,0.0,-1.0));
#99=AXIS2_PLACEMENT_3D('',#96,#97,#98);
#100=PLANE('',#99);
#101=ORIENTED_EDGE('',*,*,#80,.F.);
#102=EDGE_LOOP('',(#101));
#103=FACE_OUTER_BOUND('',#102,.T.);
#104=ADVANCED_FACE('',(#103),#100,.F.);
#105=CARTESIAN_POINT('',(11.500000000000002,1.200000000000001,-3.700000000000001));
#106=DIRECTION('',(1.0,0.0,0.0));
#107=DIRECTION('',(0.0,0.0,-1.0));
#108=AXIS2_PLACEMENT_3D('',#105,#106,#107);
#109=CYLINDRICAL_SURFACE('',#108,0.500000000000000);
#110=CARTESIAN_POINT('',(21.500000000000004,1.200000000000001,-3.200000000000001));
#111=VERTEX_POINT('',#110);
#112=CARTESIAN_POINT('',(21.500000000000004,1.200000000000001,-3.700000000000001));
#113=DIRECTION('',(-1.0,0.0,0.0));
#114=DIRECTION('',(0.0,0.0,-1.0));
#115=AXIS2_PLACEMENT_3D('',#112,#113,#114);
#116=CIRCLE('',#115,0.500000000000000);
#117=EDGE_CURVE('',#111,#111,#116,.T.);
#118=ORIENTED_EDGE('',*,*,#117,.T.);
#119=EDGE_LOOP('',(#118));
#120=FACE_OUTER_BOUND('',#119,.T.);
#121=CARTESIAN_POINT('',(11.500000000000002,1.200000000000001,-3.200000000000001));
#122=VERTEX_POINT('',#121);
#123=CARTESIAN_POINT('',(11.500000000000002,1.200000000000001,-3.700000000000001));
#124=DIRECTION('',(-1.0,0.0,0.0));
#125=DIRECTION('',(0.0,0.0,-1.0));
#126=AXIS2_PLACEMENT_3D('',#123,#124,#125);
#127=CIRCLE('',#126,0.500000000000000);
#128=EDGE_CURVE('',#122,#122,#127,.T.);
#129=ORIENTED_EDGE('',*,*,#128,.F.);
#130=EDGE_LOOP('',(#129));
#131=FACE_BOUND('',#130,.T.);
#132=ADVANCED_FACE('',(#120,#131),#109,.T.);
#133=CARTESIAN_POINT('',(21.500000000000004,1.200000000000001,-3.700000000000001));
#134=DIRECTION('',(-1.0,0.0,0.0));
#135=DIRECTION('',(0.0,0.0,-1.0));
#136=AXIS2_PLACEMENT_3D('',#133,#134,#135);
#137=PLANE('',#136);
#138=ORIENTED_EDGE('',*,*,#117,.F.);
#139=EDGE_LOOP('',(#138));
#140=FACE_OUTER_BOUND('',#139,.T.);
#141=ADVANCED_FACE('',(#140),#137,.F.);
#142=CARTESIAN_POINT('',(11.500000000000002,-1.200000000000001,-3.700000000000001));
#143=DIRECTION('',(1.0,0.0,0.0));
#144=DIRECTION('',(0.0,0.0,-1.0));
#145=AXIS2_PLACEMENT_3D('',#142,#143,#144);
#146=CYLINDRICAL_SURFACE('',#145,0.500000000000000);
#147=CARTESIAN_POINT('',(21.500000000000004,-1.200000000000001,-3.200000000000001));
#148=VERTEX_POINT('',#147);
#149=CARTESIAN_POINT('',(21.500000000000004,-1.200000000000001,-3.700000000000001));
#150=DIRECTION('',(-1.0,0.0,0.0));
#151=DIRECTION('',(0.0,0.0,-1.0));
#152=AXIS2_PLACEMENT_3D('',#149,#150,#151);
#153=CIRCLE('',#152,0.500000000000000);
#154=EDGE_CURVE('',#148,#148,#153,.T.);
#155=ORIENTED_EDGE('',*,*,#154,.T.);
#156=EDGE_LOOP('',(#155));
#157=FACE_OUTER_BOUND('',#156,.T.);
#158=CARTESIAN_POINT('',(11.500000000000002,-1.200000000000001,-3.200000000000001));
#159=VERTEX_POINT('',#158);
#160=CARTESIAN_POINT('',(11.500000000000002,-1.200000000000001,-3.700000000000001));
#161=DIRECTION('',(-1.0,0.0,0.0));
#162=DIRECTION('',(0.0,0.0,-1.0));
#163=AXIS2_PLACEMENT_3D('',#160,#161,#162);
#164=CIRCLE('',#163,0.500000000000000);
#165=EDGE_CURVE('',#159,#159,#164,.T.);
#166=ORIENTED_EDGE('',*,*,#165,.F.);
#167=EDGE_LOOP('',(#166));
#168=FACE_BOUND('',#167,.T.);
#169=ADVANCED_FACE('',(#157,#168),#146,.T.);
#170=CARTESIAN_POINT('',(21.500000000000004,-1.200000000000001,-3.700000000000001));
#171=DIRECTION('',(-1.0,0.0,0.0));
#172=DIRECTION('',(0.0,0.0,-1.0));
#173=AXIS2_PLACEMENT_3D('',#170,#171,#172);
#174=PLANE('',#173);
#175=ORIENTED_EDGE('',*,*,#154,.F.);
#176=EDGE_LOOP('',(#175));
#177=FACE_OUTER_BOUND('',#176,.T.);
#178=ADVANCED_FACE('',(#177),#174,.F.);
#179=CARTESIAN_POINT('',(11.500000000000002,-1.200000000000001,-6.100000000000001));
#180=DIRECTION('',(1.0,0.0,0.0));
#181=DIRECTION('',(0.0,0.0,-1.0));
#182=AXIS2_PLACEMENT_3D('',#179,#180,#181);
#183=CYLINDRICAL_SURFACE('',#182,0.500000000000000);
#184=CARTESIAN_POINT('',(21.500000000000004,-1.200000000000001,-5.600000000000001));
#185=VERTEX_POINT('',#184);
#186=CARTESIAN_POINT('',(21.500000000000004,-1.200000000000001,-6.100000000000001));
#187=DIRECTION('',(-1.0,0.0,0.0));
#188=DIRECTION('',(0.0,0.0,-1.0));
#189=AXIS2_PLACEMENT_3D('',#186,#187,#188);
#190=CIRCLE('',#189,0.500000000000000);
#191=EDGE_CURVE('',#185,#185,#190,.T.);
#192=ORIENTED_EDGE('',*,*,#191,.T.);
#193=EDGE_LOOP('',(#192));
#194=FACE_OUTER_BOUND('',#193,.T.);
#195=CARTESIAN_POINT('',(11.500000000000002,-1.200000000000001,-5.600000000000001));
#196=VERTEX_POINT('',#195);
#197=CARTESIAN_POINT('',(11.500000000000002,-1.200000000000001,-6.100000000000001));
#198=DIRECTION('',(-1.0,0.0,0.0));
#199=DIRECTION('',(0.0,0.0,-1.0));
#200=AXIS2_PLACEMENT_3D('',#197,#198,#199);
#201=CIRCLE('',#200,0.500000000000000);
#202=EDGE_CURVE('',#196,#196,#201,.T.);
#203=ORIENTED_EDGE('',*,*,#202,.F.);
#204=EDGE_LOOP('',(#203));
#205=FACE_BOUND('',#204,.T.);
#206=ADVANCED_FACE('',(#194,#205),#183,.T.);
#207=CARTESIAN_POINT('',(21.500000000000004,-1.200000000000001,-6.100000000000001));
#208=DIRECTION('',(-1.0,0.0,0.0));
#209=DIRECTION('',(0.0,0.0,-1.0));
#210=AXIS2_PLACEMENT_3D('',#207,#208,#209);
#211=PLANE('',#210);
#212=ORIENTED_EDGE('',*,*,#191,.F.);
#213=EDGE_LOOP('',(#212));
#214=FACE_OUTER_BOUND('',#213,.T.);
#215=ADVANCED_FACE('',(#214),#211,.F.);
#216=CARTESIAN_POINT('',(11.500000000000002,-3.600000000000001,-8.000000000000002));
#217=DIRECTION('',(0.0,-1.0,0.0));
#218=DIRECTION('',(0.0,0.0,1.0));
#219=AXIS2_PLACEMENT_3D('',#216,#217,#218);
#220=PLANE('',#219);
#221=CARTESIAN_POINT('',(11.500000000000002,-3.600000000000001,-1.800000000000001));
#222=VERTEX_POINT('',#221);
#223=CARTESIAN_POINT('',(6.579513659838393,-3.600000000000001,-1.800000000000001));
#224=VERTEX_POINT('',#223);
#225=CARTESIAN_POINT('',(11.500000000000002,-3.600000000000001,-1.800000000000001));
#226=DIRECTION('',(-1.0,0.0,0.0));
#227=VECTOR('',#226,4.920486340161609);
#228=LINE('',#225,#227);
#229=EDGE_CURVE('',#222,#224,#228,.T.);
#230=ORIENTED_EDGE('',*,*,#229,.T.);
#231=CARTESIAN_POINT('',(6.579513659838393,-3.600000000000001,-8.000000000000002));
#232=VERTEX_POINT('',#231);
#233=CARTESIAN_POINT('',(6.579513659838394,-3.600000000000000,-8.000000000000002));
#234=DIRECTION('',(0.0,0.0,1.0));
#235=VECTOR('',#234,6.200000000000001);
#236=LINE('',#233,#235);
#237=EDGE_CURVE('',#232,#224,#236,.T.);
#238=ORIENTED_EDGE('',*,*,#237,.F.);
#239=CARTESIAN_POINT('',(11.500000000000002,-3.600000000000001,-8.000000000000002));
#240=VERTEX_POINT('',#239);
#241=CARTESIAN_POINT('',(6.579513659838393,-3.600000000000001,-8.000000000000002));
#242=DIRECTION('',(1.0,0.0,0.0));
#243=VECTOR('',#242,4.920486340161609);
#244=LINE('',#241,#243);
#245=EDGE_CURVE('',#232,#240,#244,.T.);
#246=ORIENTED_EDGE('',*,*,#245,.T.);
#247=CARTESIAN_POINT('',(11.500000000000002,-3.600000000000001,-8.000000000000002));
#248=DIRECTION('',(0.0,0.0,1.0));
#249=VECTOR('',#248,6.200000000000001);
#250=LINE('',#247,#249);
#251=EDGE_CURVE('',#240,#222,#250,.T.);
#252=ORIENTED_EDGE('',*,*,#251,.T.);
#253=EDGE_LOOP('',(#230,#238,#246,#252));
#254=FACE_OUTER_BOUND('',#253,.T.);
#255=ADVANCED_FACE('',(#254),#220,.T.);
#256=CARTESIAN_POINT('',(6.579513659838393,3.600000000000001,-8.000000000000002));
#257=DIRECTION('',(0.0,1.0,0.0));
#258=DIRECTION('',(0.0,0.0,-1.0));
#259=AXIS2_PLACEMENT_3D('',#256,#257,#258);
#260=PLANE('',#259);
#261=CARTESIAN_POINT('',(6.579513659838393,3.600000000000001,-1.800000000000001));
#262=VERTEX_POINT('',#261);
#263=CARTESIAN_POINT('',(11.500000000000002,3.600000000000001,-1.800000000000001));
#264=VERTEX_POINT('',#263);
#265=CARTESIAN_POINT('',(6.579513659838393,3.600000000000001,-1.800000000000001));
#266=DIRECTION('',(1.0,0.0,0.0));
#267=VECTOR('',#266,4.920486340161609);
#268=LINE('',#265,#267);
#269=EDGE_CURVE('',#262,#264,#268,.T.);
#270=ORIENTED_EDGE('',*,*,#269,.T.);
#271=CARTESIAN_POINT('',(11.500000000000002,3.600000000000001,-8.000000000000002));
#272=VERTEX_POINT('',#271);
#273=CARTESIAN_POINT('',(11.500000000000002,3.600000000000001,-8.000000000000002));
#274=DIRECTION('',(0.0,0.0,1.0));
#275=VECTOR('',#274,6.200000000000001);
#276=LINE('',#273,#275);
#277=EDGE_CURVE('',#272,#264,#276,.T.);
#278=ORIENTED_EDGE('',*,*,#277,.F.);
#279=CARTESIAN_POINT('',(6.579513659838393,3.600000000000001,-8.000000000000002));
#280=VERTEX_POINT('',#279);
#281=CARTESIAN_POINT('',(11.500000000000002,3.600000000000001,-8.000000000000002));
#282=DIRECTION('',(-1.0,0.0,0.0));
#283=VECTOR('',#282,4.920486340161609);
#284=LINE('',#281,#283);
#285=EDGE_CURVE('',#272,#280,#284,.T.);
#286=ORIENTED_EDGE('',*,*,#285,.T.);
#287=CARTESIAN_POINT('',(6.579513659838394,3.600000000000000,-1.800000000000001));
#288=DIRECTION('',(0.0,0.0,-1.0));
#289=VECTOR('',#288,6.200000000000001);
#290=LINE('',#287,#289);
#291=EDGE_CURVE('',#262,#280,#290,.T.);
#292=ORIENTED_EDGE('',*,*,#291,.F.);
#293=EDGE_LOOP('',(#270,#278,#286,#292));
#294=FACE_OUTER_BOUND('',#293,.T.);
#295=ADVANCED_FACE('',(#294),#260,.T.);
#296=CARTESIAN_POINT('',(11.500000000000002,-1.408344E-015,-8.000000000000002));
#297=DIRECTION('',(1.0,0.0,0.0));
#298=DIRECTION('',(0.0,0.0,1.0));
#299=AXIS2_PLACEMENT_3D('',#296,#297,#298);
#300=PLANE('',#299);
#301=CARTESIAN_POINT('',(11.500000000000002,3.600000000000001,-1.800000000000001));
#302=DIRECTION('',(0.0,-1.0,0.0));
#303=VECTOR('',#302,7.200000000000001);
#304=LINE('',#301,#303);
#305=EDGE_CURVE('',#264,#222,#304,.T.);
#306=ORIENTED_EDGE('',*,*,#305,.T.);
#307=ORIENTED_EDGE('',*,*,#251,.F.);
#308=CARTESIAN_POINT('',(11.500000000000002,-3.600000000000001,-8.000000000000002));
#309=DIRECTION('',(0.0,1.0,0.0));
#310=VECTOR('',#309,7.200000000000001);
#311=LINE('',#308,#310);
#312=EDGE_CURVE('',#240,#272,#311,.T.);
#313=ORIENTED_EDGE('',*,*,#312,.T.);
#314=ORIENTED_EDGE('',*,*,#277,.T.);
#315=EDGE_LOOP('',(#306,#307,#313,#314));
#316=FACE_OUTER_BOUND('',#315,.T.);
#317=ORIENTED_EDGE('',*,*,#91,.T.);
#318=EDGE_LOOP('',(#317));
#319=FACE_BOUND('',#318,.T.);
#320=ORIENTED_EDGE('',*,*,#128,.T.);
#321=EDGE_LOOP('',(#320));
#322=FACE_BOUND('',#321,.T.);
#323=ORIENTED_EDGE('',*,*,#165,.T.);
#324=EDGE_LOOP('',(#323));
#325=FACE_BOUND('',#324,.T.);
#326=ORIENTED_EDGE('',*,*,#202,.T.);
#327=EDGE_LOOP('',(#326));
#328=FACE_BOUND('',#327,.T.);
#329=ADVANCED_FACE('',(#316,#319,#322,#325,#328),#300,.T.);
#330=CARTESIAN_POINT('',(9.176965841371434,3.469447E-016,-8.000000000000002));
#331=DIRECTION('',(0.0,0.0,1.0));
#332=DIRECTION('',(-1.0,0.0,0.0));
#333=AXIS2_PLACEMENT_3D('',#330,#331,#332);
#334=PLANE('',#333);
#335=ORIENTED_EDGE('',*,*,#312,.F.);
#336=ORIENTED_EDGE('',*,*,#245,.F.);
#337=CARTESIAN_POINT('',(0.0,0.0,-8.000000000000005));
#338=DIRECTION('',(0.0,0.0,-1.0));
#339=DIRECTION('',(-0.615540422312006,-0.788105315614581,0.0));
#340=AXIS2_PLACEMENT_3D('',#337,#338,#339);
#341=CIRCLE('',#340,7.500000000000002);
#342=EDGE_CURVE('',#280,#232,#341,.T.);
#343=ORIENTED_EDGE('',*,*,#342,.F.);
#344=ORIENTED_EDGE('',*,*,#285,.F.);
#345=EDGE_LOOP('',(#335,#336,#343,#344));
#346=FACE_OUTER_BOUND('',#345,.T.);
#347=ADVANCED_FACE('',(#346),#334,.F.);
#348=CARTESIAN_POINT('',(9.176965841371434,2.775558E-016,-1.800000000000001));
#349=DIRECTION('',(0.0,0.0,1.0));
#350=DIRECTION('',(-1.0,0.0,0.0));
#351=AXIS2_PLACEMENT_3D('',#348,#349,#350);
#352=PLANE('',#351);
#353=ORIENTED_EDGE('',*,*,#229,.F.);
#354=ORIENTED_EDGE('',*,*,#305,.F.);
#355=ORIENTED_EDGE('',*,*,#269,.F.);
#356=CARTESIAN_POINT('',(0.0,0.0,-1.800000000000001));
#357=DIRECTION('',(0.0,0.0,1.0));
#358=DIRECTION('',(-0.615540422312006,-0.788105315614581,0.0));
#359=AXIS2_PLACEMENT_3D('',#356,#357,#358);
#360=CIRCLE('',#359,7.500000000000002);
#361=EDGE_CURVE('',#224,#262,#360,.T.);
#362=ORIENTED_EDGE('',*,*,#361,.F.);
#363=EDGE_LOOP('',(#353,#354,#355,#362));
#364=FACE_OUTER_BOUND('',#363,.T.);
#365=ADVANCED_FACE('',(#364),#352,.T.);
#366=CARTESIAN_POINT('',(0.0,0.0,-11.399999999999999));
#367=DIRECTION('',(0.0,0.0,-1.0));
#368=DIRECTION('',(-1.0,0.0,0.0));
#369=AXIS2_PLACEMENT_3D('',#366,#367,#368);
#370=CYLINDRICAL_SURFACE('',#369,1.0);
#371=CARTESIAN_POINT('',(1.0,-1.224647E-016,-11.899999999999999));
#372=VERTEX_POINT('',#371);
#373=CARTESIAN_POINT('',(0.0,0.0,-11.899999999999999));
#374=DIRECTION('',(0.0,0.0,1.0));
#375=DIRECTION('',(-1.0,0.0,0.0));
#376=AXIS2_PLACEMENT_3D('',#373,#374,#375);
#377=CIRCLE('',#376,1.0);
#378=EDGE_CURVE('',#372,#372,#377,.T.);
#379=ORIENTED_EDGE('',*,*,#378,.T.);
#380=EDGE_LOOP('',(#379));
#381=FACE_OUTER_BOUND('',#380,.T.);
#382=CARTESIAN_POINT('',(1.0,-1.224647E-016,-11.399999999999999));
#383=VERTEX_POINT('',#382);
#384=CARTESIAN_POINT('',(0.0,0.0,-11.399999999999999));
#385=DIRECTION('',(0.0,0.0,1.0));
#386=DIRECTION('',(-1.0,0.0,0.0));
#387=AXIS2_PLACEMENT_3D('',#384,#385,#386);
#388=CIRCLE('',#387,1.0);
#389=EDGE_CURVE('',#383,#383,#388,.T.);
#390=ORIENTED_EDGE('',*,*,#389,.F.);
#391=EDGE_LOOP('',(#390));
#392=FACE_BOUND('',#391,.T.);
#393=ADVANCED_FACE('',(#381,#392),#370,.T.);
#394=CARTESIAN_POINT('',(0.0,0.0,-11.899999999999999));
#395=DIRECTION('',(0.0,0.0,1.0));
#396=DIRECTION('',(-1.0,0.0,0.0));
#397=AXIS2_PLACEMENT_3D('',#394,#395,#396);
#398=PLANE('',#397);
#399=ORIENTED_EDGE('',*,*,#378,.F.);
#400=EDGE_LOOP('',(#399));
#401=FACE_OUTER_BOUND('',#400,.T.);
#402=ADVANCED_FACE('',(#401),#398,.F.);
#403=CARTESIAN_POINT('',(0.0,0.0,-10.400000000000000));
#404=DIRECTION('',(0.0,0.0,-1.0));
#405=DIRECTION('',(-1.0,0.0,0.0));
#406=AXIS2_PLACEMENT_3D('',#403,#404,#405);
#407=CYLINDRICAL_SURFACE('',#406,3.000000000000000);
#408=CARTESIAN_POINT('',(3.000000000000000,-3.673940E-016,-11.399999999999999));
#409=VERTEX_POINT('',#408);
#410=CARTESIAN_POINT('',(0.0,0.0,-11.399999999999999));
#411=DIRECTION('',(0.0,0.0,1.0));
#412=DIRECTION('',(-1.0,0.0,0.0));
#413=AXIS2_PLACEMENT_3D('',#410,#411,#412);
#414=CIRCLE('',#413,3.000000000000000);
#415=EDGE_CURVE('',#409,#409,#414,.T.);
#416=ORIENTED_EDGE('',*,*,#415,.T.);
#417=EDGE_LOOP('',(#416));
#418=FACE_OUTER_BOUND('',#417,.T.);
#419=CARTESIAN_POINT('',(3.000000000000000,-3.673940E-016,-10.400000000000000));
#420=VERTEX_POINT('',#419);
#421=CARTESIAN_POINT('',(0.0,0.0,-10.400000000000000));
#422=DIRECTION('',(0.0,0.0,1.0));
#423=DIRECTION('',(-1.0,0.0,0.0));
#424=AXIS2_PLACEMENT_3D('',#421,#422,#423);
#425=CIRCLE('',#424,3.000000000000000);
#426=EDGE_CURVE('',#420,#420,#425,.T.);
#427=ORIENTED_EDGE('',*,*,#426,.F.);
#428=EDGE_LOOP('',(#427));
#429=FACE_BOUND('',#428,.T.);
#430=ADVANCED_FACE('',(#418,#429),#407,.T.);
#431=CARTESIAN_POINT('',(0.0,0.0,-11.399999999999999));
#432=DIRECTION('',(0.0,0.0,1.0));
#433=DIRECTION('',(-1.0,0.0,0.0));
#434=AXIS2_PLACEMENT_3D('',#431,#432,#433);
#435=PLANE('',#434);
#436=ORIENTED_EDGE('',*,*,#415,.F.);
#437=EDGE_LOOP('',(#436));
#438=FACE_OUTER_BOUND('',#437,.T.);
#439=ORIENTED_EDGE('',*,*,#389,.T.);
#440=EDGE_LOOP('',(#439));
#441=FACE_BOUND('',#440,.T.);
#442=ADVANCED_FACE('',(#438,#441),#435,.F.);
#443=CARTESIAN_POINT('',(0.0,0.0,-9.800000000000001));
#444=DIRECTION('',(0.0,0.0,-1.0));
#445=DIRECTION('',(-1.0,0.0,0.0));
#446=AXIS2_PLACEMENT_3D('',#443,#444,#445);
#447=CYLINDRICAL_SURFACE('',#446,7.000000000000001);
#448=CARTESIAN_POINT('',(7.000000000000001,-8.572528E-016,-10.400000000000000));
#449=VERTEX_POINT('',#448);
#450=CARTESIAN_POINT('',(0.0,0.0,-10.400000000000000));
#451=DIRECTION('',(0.0,0.0,1.0));
#452=DIRECTION('',(-1.0,0.0,0.0));
#453=AXIS2_PLACEMENT_3D('',#450,#451,#452);
#454=CIRCLE('',#453,7.000000000000001);
#455=EDGE_CURVE('',#449,#449,#454,.T.);
#456=ORIENTED_EDGE('',*,*,#455,.T.);
#457=EDGE_LOOP('',(#456));
#458=FACE_OUTER_BOUND('',#457,.T.);
#459=CARTESIAN_POINT('',(7.000000000000001,-8.572528E-016,-9.800000000000001));
#460=VERTEX_POINT('',#459);
#461=CARTESIAN_POINT('',(0.0,0.0,-9.800000000000003));
#462=DIRECTION('',(0.0,0.0,1.0));
#463=DIRECTION('',(-1.0,0.0,0.0));
#464=AXIS2_PLACEMENT_3D('',#461,#462,#463);
#465=CIRCLE('',#464,7.000000000000001);
#466=EDGE_CURVE('',#460,#460,#465,.T.);
#467=ORIENTED_EDGE('',*,*,#466,.F.);
#468=EDGE_LOOP('',(#467));
#469=FACE_BOUND('',#468,.T.);
#470=ADVANCED_FACE('',(#458,#469),#447,.T.);
#471=CARTESIAN_POINT('',(0.0,0.0,-10.400000000000000));
#472=DIRECTION('',(0.0,0.0,1.0));
#473=DIRECTION('',(-1.0,0.0,0.0));
#474=AXIS2_PLACEMENT_3D('',#471,#472,#473);
#475=PLANE('',#474);
#476=ORIENTED_EDGE('',*,*,#455,.F.);
#477=EDGE_LOOP('',(#476));
#478=FACE_OUTER_BOUND('',#477,.T.);
#479=ORIENTED_EDGE('',*,*,#426,.T.);
#480=EDGE_LOOP('',(#479));
#481=FACE_BOUND('',#480,.T.);
#482=ADVANCED_FACE('',(#478,#481),#475,.F.);
#483=CARTESIAN_POINT('',(0.0,0.0,0.0));
#484=DIRECTION('',(0.0,0.0,1.0));
#485=DIRECTION('',(-0.615540422312006,-0.788105315614581,0.0));
#486=AXIS2_PLACEMENT_3D('',#483,#484,#485);
#487=PLANE('',#486);
#488=CARTESIAN_POINT('',(4.616553167340044,5.910789867109355,0.0));
#489=VERTEX_POINT('',#488);
#490=CARTESIAN_POINT('',(0.0,0.0,0.0));
#491=DIRECTION('',(0.0,0.0,1.0));
#492=DIRECTION('',(-0.615540422312006,-0.788105315614581,0.0));
#493=AXIS2_PLACEMENT_3D('',#490,#491,#492);
#494=CIRCLE('',#493,7.500000000000002);
#495=EDGE_CURVE('',#489,#489,#494,.T.);
#496=ORIENTED_EDGE('',*,*,#495,.T.);
#497=EDGE_LOOP('',(#496));
#498=FACE_OUTER_BOUND('',#497,.T.);
#499=CARTESIAN_POINT('',(7.000000000000001,8.572528E-016,0.0));
#500=VERTEX_POINT('',#499);
#501=CARTESIAN_POINT('',(0.0,0.0,0.0));
#502=DIRECTION('',(0.0,0.0,-1.0));
#503=DIRECTION('',(-1.0,0.0,0.0));
#504=AXIS2_PLACEMENT_3D('',#501,#502,#503);
#505=CIRCLE('',#504,7.000000000000001);
#506=EDGE_CURVE('',#500,#500,#505,.T.);
#507=ORIENTED_EDGE('',*,*,#506,.T.);
#508=EDGE_LOOP('',(#507));
#509=FACE_BOUND('',#508,.T.);
#510=ADVANCED_FACE('',(#498,#509),#487,.T.);
#511=CARTESIAN_POINT('',(0.0,0.0,0.0));
#512=DIRECTION('',(0.0,0.0,-1.0));
#513=DIRECTION('',(-0.615540422312006,-0.788105315614581,0.0));
#514=AXIS2_PLACEMENT_3D('',#511,#512,#513);
#515=CYLINDRICAL_SURFACE('',#514,7.500000000000002);
#516=CARTESIAN_POINT('',(4.616553167340044,5.910789867109355,-9.800000000000003));
#517=VERTEX_POINT('',#516);
#518=CARTESIAN_POINT('',(0.0,0.0,-9.800000000000003));
#519=DIRECTION('',(0.0,0.0,1.0));
#520=DIRECTION('',(-0.615540422312006,-0.788105315614581,0.0));
#521=AXIS2_PLACEMENT_3D('',#518,#519,#520);
#522=CIRCLE('',#521,7.500000000000002);
#523=EDGE_CURVE('',#517,#517,#522,.T.);
#524=ORIENTED_EDGE('',*,*,#523,.T.);
#525=EDGE_LOOP('',(#524));
#526=FACE_OUTER_BOUND('',#525,.T.);
#527=ORIENTED_EDGE('',*,*,#291,.T.);
#528=ORIENTED_EDGE('',*,*,#342,.T.);
#529=ORIENTED_EDGE('',*,*,#237,.T.);
#530=ORIENTED_EDGE('',*,*,#361,.T.);
#531=EDGE_LOOP('',(#527,#528,#529,#530));
#532=FACE_BOUND('',#531,.T.);
#533=ORIENTED_EDGE('',*,*,#495,.F.);
#534=EDGE_LOOP('',(#533));
#535=FACE_BOUND('',#534,.T.);
#536=ADVANCED_FACE('',(#526,#532,#535),#515,.T.);
#537=CARTESIAN_POINT('',(0.0,0.0,-9.800000000000003));
#538=DIRECTION('',(0.0,0.0,1.0));
#539=DIRECTION('',(-0.615540422312006,-0.788105315614581,0.0));
#540=AXIS2_PLACEMENT_3D('',#537,#538,#539);
#541=PLANE('',#540);
#542=ORIENTED_EDGE('',*,*,#523,.F.);
#543=EDGE_LOOP('',(#542));
#544=FACE_OUTER_BOUND('',#543,.T.);
#545=ORIENTED_EDGE('',*,*,#466,.T.);
#546=EDGE_LOOP('',(#545));
#547=FACE_BOUND('',#546,.T.);
#548=ADVANCED_FACE('',(#544,#547),#541,.F.);
#549=CARTESIAN_POINT('',(0.0,0.0,23.600000000000001));
#550=DIRECTION('',(0.0,0.0,1.0));
#551=DIRECTION('',(1.0,0.0,0.0));
#552=AXIS2_PLACEMENT_3D('',#549,#550,#551);
#553=CYLINDRICAL_SURFACE('',#552,0.500000000000000);
#554=CARTESIAN_POINT('',(-0.500000000000000,-6.123234E-017,24.600000000000005));
#555=VERTEX_POINT('',#554);
#556=CARTESIAN_POINT('',(0.0,0.0,24.600000000000005));
#557=DIRECTION('',(0.0,0.0,-1.0));
#558=DIRECTION('',(1.0,0.0,0.0));
#559=AXIS2_PLACEMENT_3D('',#556,#557,#558);
#560=CIRCLE('',#559,0.500000000000000);
#561=EDGE_CURVE('',#555,#555,#560,.T.);
#562=ORIENTED_EDGE('',*,*,#561,.T.);
#563=EDGE_LOOP('',(#562));
#564=FACE_OUTER_BOUND('',#563,.T.);
#565=CARTESIAN_POINT('',(0.500000000000000,-6.123234E-017,23.600000000000001));
#566=VERTEX_POINT('',#565);
#567=CARTESIAN_POINT('',(0.0,0.0,23.600000000000001));
#568=DIRECTION('',(0.0,0.0,-1.0));
#569=DIRECTION('',(-1.0,0.0,0.0));
#570=AXIS2_PLACEMENT_3D('',#567,#568,#569);
#571=CIRCLE('',#570,0.500000000000000);
#572=EDGE_CURVE('',#566,#566,#571,.T.);
#573=ORIENTED_EDGE('',*,*,#572,.F.);
#574=EDGE_LOOP('',(#573));
#575=FACE_BOUND('',#574,.T.);
#576=ADVANCED_FACE('',(#564,#575),#553,.T.);
#577=CARTESIAN_POINT('',(0.0,0.0,24.600000000000005));
#578=DIRECTION('',(0.0,0.0,-1.0));
#579=DIRECTION('',(1.0,0.0,0.0));
#580=AXIS2_PLACEMENT_3D('',#577,#578,#579);
#581=PLANE('',#580);
#582=ORIENTED_EDGE('',*,*,#561,.F.);
#583=EDGE_LOOP('',(#582));
#584=FACE_OUTER_BOUND('',#583,.T.);
#585=ADVANCED_FACE('',(#584),#581,.F.);
#586=CARTESIAN_POINT('',(0.0,0.0,23.350000000000005));
#587=DIRECTION('',(0.0,0.0,-1.0));
#588=DIRECTION('',(-1.0,0.0,0.0));
#589=AXIS2_PLACEMENT_3D('',#586,#587,#588);
#590=CONICAL_SURFACE('',#589,0.750000000000000,44.999999999999993);
#591=CARTESIAN_POINT('',(1.0,1.224647E-016,23.100000000000005));
#592=VERTEX_POINT('',#591);
#593=CARTESIAN_POINT('',(0.0,0.0,23.100000000000005));
#594=DIRECTION('',(0.0,0.0,1.0));
#595=DIRECTION('',(-1.0,0.0,0.0));
#596=AXIS2_PLACEMENT_3D('',#593,#594,#595);
#597=CIRCLE('',#596,1.0);
#598=EDGE_CURVE('',#592,#592,#597,.T.);
#599=ORIENTED_EDGE('',*,*,#598,.T.);
#600=EDGE_LOOP('',(#599));
#601=FACE_OUTER_BOUND('',#600,.T.);
#602=ORIENTED_EDGE('',*,*,#572,.T.);
#603=EDGE_LOOP('',(#602));
#604=FACE_BOUND('',#603,.T.);
#605=ADVANCED_FACE('',(#601,#604),#590,.T.);
#606=CARTESIAN_POINT('',(0.0,0.0,23.600000000000001));
#607=DIRECTION('',(0.0,0.0,-1.0));
#608=DIRECTION('',(-1.0,0.0,0.0));
#609=AXIS2_PLACEMENT_3D('',#606,#607,#608);
#610=CYLINDRICAL_SURFACE('',#609,1.0);
#611=CARTESIAN_POINT('',(1.0,-1.224647E-016,1.600000000000001));
#612=VERTEX_POINT('',#611);
#613=CARTESIAN_POINT('',(0.0,0.0,1.600000000000001));
#614=DIRECTION('',(0.0,0.0,-1.0));
#615=DIRECTION('',(-1.0,0.0,0.0));
#616=AXIS2_PLACEMENT_3D('',#613,#614,#615);
#617=CIRCLE('',#616,1.0);
#618=EDGE_CURVE('',#612,#612,#617,.T.);
#619=ORIENTED_EDGE('',*,*,#618,.F.);
#620=EDGE_LOOP('',(#619));
#621=FACE_OUTER_BOUND('',#620,.T.);
#622=ORIENTED_EDGE('',*,*,#598,.F.);
#623=EDGE_LOOP('',(#622));
#624=FACE_BOUND('',#623,.T.);
#625=ADVANCED_FACE('',(#621,#624),#610,.T.);
#626=CARTESIAN_POINT('',(0.0,0.0,0.600000000000000));
#627=DIRECTION('',(0.0,0.0,1.0));
#628=DIRECTION('',(-1.0,0.0,0.0));
#629=AXIS2_PLACEMENT_3D('',#626,#627,#628);
#630=CYLINDRICAL_SURFACE('',#629,3.000000000000000);
#631=CARTESIAN_POINT('',(3.000000000000000,3.673940E-016,1.600000000000000));
#632=VERTEX_POINT('',#631);
#633=CARTESIAN_POINT('',(0.0,0.0,1.600000000000000));
#634=DIRECTION('',(0.0,0.0,-1.0));
#635=DIRECTION('',(-1.0,0.0,0.0));
#636=AXIS2_PLACEMENT_3D('',#633,#634,#635);
#637=CIRCLE('',#636,3.000000000000000);
#638=EDGE_CURVE('',#632,#632,#637,.T.);
#639=ORIENTED_EDGE('',*,*,#638,.T.);
#640=EDGE_LOOP('',(#639));
#641=FACE_OUTER_BOUND('',#640,.T.);
#642=CARTESIAN_POINT('',(3.000000000000000,3.673940E-016,0.600000000000000));
#643=VERTEX_POINT('',#642);
#644=CARTESIAN_POINT('',(0.0,0.0,0.600000000000000));
#645=DIRECTION('',(0.0,0.0,-1.0));
#646=DIRECTION('',(-1.0,0.0,0.0));
#647=AXIS2_PLACEMENT_3D('',#644,#645,#646);
#648=CIRCLE('',#647,3.000000000000000);
#649=EDGE_CURVE('',#643,#643,#648,.T.);
#650=ORIENTED_EDGE('',*,*,#649,.F.);
#651=EDGE_LOOP('',(#650));
#652=FACE_BOUND('',#651,.T.);
#653=ADVANCED_FACE('',(#641,#652),#630,.T.);
#654=CARTESIAN_POINT('',(0.0,0.0,1.600000000000000));
#655=DIRECTION('',(0.0,0.0,-1.0));
#656=DIRECTION('',(-1.0,0.0,0.0));
#657=AXIS2_PLACEMENT_3D('',#654,#655,#656);
#658=PLANE('',#657);
#659=ORIENTED_EDGE('',*,*,#638,.F.);
#660=EDGE_LOOP('',(#659));
#661=FACE_OUTER_BOUND('',#660,.T.);
#662=ORIENTED_EDGE('',*,*,#618,.T.);
#663=EDGE_LOOP('',(#662));
#664=FACE_BOUND('',#663,.T.);
#665=ADVANCED_FACE('',(#661,#664),#658,.F.);
#666=CARTESIAN_POINT('',(0.0,0.0,0.0));
#667=DIRECTION('',(0.0,0.0,1.0));
#668=DIRECTION('',(-1.0,0.0,0.0));
#669=AXIS2_PLACEMENT_3D('',#666,#667,#668);
#670=CYLINDRICAL_SURFACE('',#669,7.000000000000001);
#671=CARTESIAN_POINT('',(7.000000000000001,8.572528E-016,0.600000000000000));
#672=VERTEX_POINT('',#671);
#673=CARTESIAN_POINT('',(0.0,0.0,0.600000000000000));
#674=DIRECTION('',(0.0,0.0,-1.0));
#675=DIRECTION('',(-1.0,0.0,0.0));
#676=AXIS2_PLACEMENT_3D('',#673,#674,#675);
#677=CIRCLE('',#676,7.000000000000001);
#678=EDGE_CURVE('',#672,#672,#677,.T.);
#679=ORIENTED_EDGE('',*,*,#678,.T.);
#680=EDGE_LOOP('',(#679));
#681=FACE_OUTER_BOUND('',#680,.T.);
#682=ORIENTED_EDGE('',*,*,#506,.F.);
#683=EDGE_LOOP('',(#682));
#684=FACE_BOUND('',#683,.T.);
#685=ADVANCED_FACE('',(#681,#684),#670,.T.);
#686=CARTESIAN_POINT('',(0.0,0.0,0.600000000000000));
#687=DIRECTION('',(0.0,0.0,-1.0));
#688=DIRECTION('',(-1.0,0.0,0.0));
#689=AXIS2_PLACEMENT_3D('',#686,#687,#688);
#690=PLANE('',#689);
#691=ORIENTED_EDGE('',*,*,#678,.F.);
#692=EDGE_LOOP('',(#691));
#693=FACE_OUTER_BOUND('',#692,.T.);
#694=ORIENTED_EDGE('',*,*,#649,.T.);
#695=EDGE_LOOP('',(#694));
#696=FACE_BOUND('',#695,.T.);
#697=ADVANCED_FACE('',(#693,#696),#690,.F.);
#698=CLOSED_SHELL('',(#95,#104,#132,#141,#169,#178,#206,#215,#255,#295,#329,#347,#365,#393,#402,#430,#442,#470,#482,#510,#536,#548,#576,#585,#605,#625,#653,#665,#685,#697));
#699=MANIFOLD_SOLID_BREP('Volumenk\S\vrper1',#698);
#700=COLOUR_RGB('Standard',0.752941012382507,0.752941012382507,0.752941012382507);
#701=FILL_AREA_STYLE_COLOUR('Standard',#700);
#702=FILL_AREA_STYLE('Standard',(#701));
#703=SURFACE_STYLE_FILL_AREA(#702);
#704=SURFACE_SIDE_STYLE('Standard',(#703));
#705=SURFACE_STYLE_USAGE(.BOTH.,#704);
#706=PRESENTATION_STYLE_ASSIGNMENT((#705));
#707=STYLED_ITEM('',(#706),#699);
#708=MECHANICAL_DESIGN_GEOMETRIC_PRESENTATION_REPRESENTATION('',(#707),#36);
#709=ADVANCED_BREP_SHAPE_REPRESENTATION('ABSR',(#699),#36);
#710=SHAPE_REPRESENTATION_RELATIONSHIP('SRR','None',#709,#41);
ENDSEC;
END-ISO-10303-21;
